0
SECTION
2
HEADER
9
$INSUNITS
70
4
9
$ACADVER
1
AC1014
9
$HANDSEED
5
FFFF
0
ENDSEC
0
SECTION
2
TABLES
0
TABLE
2
VPORT
5
8
100
AcDbSymbolTable
0
ENDTAB
0
TABLE
2
LTYPE
5
5
100
AcDbSymbolTable
0
LTYPE
5
14
100
AcDbSymbolTableRecord
100
AcDbLinetypeTableRecord
2
BYBLOCK
70
0
0
LTYPE
5
15
100
AcDbSymbolTableRecord
100
AcDbLinetypeTableRecord
2
BYLAYER
70
0
0
ENDTAB
0
TABLE
2
LAYER
5
2
100
AcDbSymbolTable
70
2
0
LAYER
5
50
100
AcDbSymbolTableRecord
100
AcDbLayerTableRecord
2
0
70
0
6
CONTINUOUS
0
ENDTAB
0
TABLE
2
STYLE
5
3
100
AcDbSymbolTable
70
1
0
STYLE
5
11
100
AcDbSymbolTableRecord
100
AcDbTextStyleTableRecord
2
STANDARD
70
0
0
ENDTAB
0
TABLE
2
VIEW
5
6
100
AcDbSymbolTable
70
0
0
ENDTAB
0
TABLE
2
UCS
5
7
100
AcDbSymbolTable
70
0
0
ENDTAB
0
TABLE
2
APPID
5
9
100
AcDbSymbolTable
70
2
0
APPID
5
12
100
AcDbSymbolTableRecord
100
AcDbRegAppTableRecord
2
ACAD
70
0
0
ENDTAB
0
TABLE
2
DIMSTYLE
5
A
100
AcDbSymbolTable
70
1
0
ENDTAB
0
TABLE
2
BLOCK_RECORD
5
1
100
AcDbSymbolTable
70
1
0
BLOCK_RECORD
5
1F
100
AcDbSymbolTableRecord
100
AcDbBlockTableRecord
2
*MODEL_SPACE
0
BLOCK_RECORD
5
1B
100
AcDbSymbolTableRecord
100
AcDbBlockTableRecord
2
*PAPER_SPACE
0
ENDTAB
0
ENDSEC
0
SECTION
2
BLOCKS
0
BLOCK
5
20
100
AcDbEntity
100
AcDbBlockBegin
2
*MODEL_SPACE
0
ENDBLK
5
21
100
AcDbEntity
100
AcDbBlockEnd
0
BLOCK
5
1C
100
AcDbEntity
100
AcDbBlockBegin
2
*PAPER_SPACE
0
ENDBLK
5
1D
100
AcDbEntity
100
AcDbBlockEnd
0
ENDSEC
0
SECTION
2
ENTITIES
0
SPLINE
5
100
100
AcDbEntity
8
0
100
AcDbSpline
70
4
71
5
72
16
73
10
74
0
42
0.000000001
43
0.0000000001
44
0.0000000001
40
0
40
0
40
0
40
0
40
0
40
0
40
0.20000000000000001
40
0.40000000000000002
40
0.60000000000000009
40
0.80000000000000004
40
1
40
1
40
1
40
1
40
1
40
1
41
1
41
1
41
1
41
1
41
1
41
1
41
1
41
1
41
1
41
1
10
-116.28671416499515
20
4.0848037843208456
30
0
10
-110.40637895428029
20
5.2507115274496483
30
0
10
-98.586321172700636
20
7.3777096234066359
30
0
10
-80.67818346440886
20
9.9542851846208915
30
0
10
-56.45108135518953
20
12.312071044727288
30
0
10
-25.477849372045679
20
13.927983855764356
30
0
10
0.08248919696361115
20
14.367688798973203
30
0
10
19.880299219533025
20
14.225658535548503
30
0
10
33.399713971631641
20
13.907850871644341
30
0
10
40.239710928856681
20
13.693126642745383
30
0
0
SPLINE
5
101
100
AcDbEntity
8
0
100
AcDbSpline
70
4
71
5
72
16
73
10
74
0
42
0.000000001
43
0.0000000001
44
0.0000000001
40
0
40
0
40
0
40
0
40
0
40
0
40
0.20000000000000001
40
0.40000000000000002
40
0.60000000000000009
40
0.80000000000000004
40
1
40
1
40
1
40
1
40
1
40
1
41
1
41
1
41
1
41
1
41
1
41
1
41
1
41
1
41
1
41
1
10
40.239710928856681
20
13.693126642745383
30
0
10
41.727880507310282
20
13.527692392781599
30
0
10
44.672037610026777
20
13.176852661524435
30
0
10
48.99181492740955
20
12.59072399052096
30
0
10
54.586057038732079
20
11.697968735241474
30
0
10
61.401261772773296
20
10.40177601241173
30
0
10
66.775042592349095
20
9.192788884589735
30
0
10
70.78234750746239
20
8.1584466877350827
30
0
10
73.445502369272418
20
7.4045345435091106
30
0
10
74.774984217037371
20
7.0114770322115909
30
0
0
SPLINE
5
102
100
AcDbEntity
8
0
100
AcDbSpline
70
4
71
5
72
16
73
10
74
0
42
0.000000001
43
0.0000000001
44
0.0000000001
40
0
40
0
40
0
40
0
40
0
40
0
40
0.20000000000000001
40
0.40000000000000002
40
0.60000000000000009
40
0.80000000000000004
40
1
40
1
40
1
40
1
40
1
40
1
41
1
41
1
41
1
41
1
41
1
41
1
41
1
41
1
41
1
41
1
10
74.774984217037371
20
7.0114770322115909
30
0
10
75.00360933623962
20
6.8778440400001344
30
0
10
75.460859574644516
20
6.6105780555774327
30
0
10
76.146734932253381
20
6.2096790789440535
30
0
10
77.061235409067834
20
5.675147110100732
30
0
10
78.204361005088799
20
5.0069821490479463
30
0
10
79.118861481906336
20
4.4724501802063781
30
0
10
79.804736839519563
20
4.0715512035754511
30
0
10
80.261987077928225
20
3.804285219154929
30
0
10
80.490612197132535
20
3.6706522269446928
30
0
0
SPLINE
5
103
100
AcDbEntity
8
0
100
AcDbSpline
70
4
71
5
72
16
73
10
74
0
42
0.000000001
43
0.0000000001
44
0.0000000001
40
0
40
0
40
0
40
0
40
0
40
0
40
0.20000000000000001
40
0.40000000000000002
40
0.60000000000000009
40
0.80000000000000004
40
1
40
1
40
1
40
1
40
1
40
1
41
1
41
1
41
1
41
1
41
1
41
1
41
1
41
1
41
1
41
1
10
80.490612197132535
20
3.6706522269446928
30
0
10
80.716661274212726
20
3.2241652455423191
30
0
10
81.159576163464763
20
2.3290449033571745
30
0
10
81.796410285555453
20
0.97992795918660658
30
0
10
82.586618656668122
20
-0.83266205510038405
30
0
10
83.428177512221723
20
-3.1325708748480885
30
0
10
83.910764273044848
20
-5.0170604464122626
30
0
10
84.111588686602602
20
-6.4680847467744886
30
0
10
84.162405892138395
20
-7.4548490077401786
30
0
10
84.167029362659235
20
-7.9530891903120029
30
0
0
SPLINE
5
104
100
AcDbEntity
8
0
100
AcDbSpline
70
4
71
5
72
16
73
10
74
0
42
0.000000001
43
0.0000000001
44
0.0000000001
40
0
40
0
40
0
40
0
40
0
40
0
40
0.20000000000000001
40
0.40000000000000002
40
0.60000000000000009
40
0.80000000000000004
40
1
40
1
40
1
40
1
40
1
40
1
41
1
41
1
41
1
41
1
41
1
41
1
41
1
41
1
41
1
41
1
10
84.167029362659235
20
-7.9530891903120029
30
0
10
83.076749853893517
20
-8.4336957552776148
30
0
10
80.304343723466175
20
-9.2891781317721787
30
0
10
74.371899825919584
20
-10.255484514487588
30
0
10
63.498371130932071
20
-10.988611697587899
30
0
10
47.288562186342816
20
-11.226117877188646
30
0
10
34.021264743181483
20
-10.99048626627682
30
0
10
24.69599544171508
20
-10.583715383653725
30
0
10
18.872466925494344
20
-10.204407789270579
30
0
10
16.059156006398862
20
-9.9877031238217899
30
0
0
SPLINE
5
105
100
AcDbEntity
8
0
100
AcDbSpline
70
4
71
5
72
16
73
10
74
0
42
0.000000001
43
0.0000000001
44
0.0000000001
40
0
40
0
40
0
40
0
40
0
40
0
40
0.20000000000000001
40
0.40000000000000002
40
0.60000000000000009
40
0.80000000000000004
40
1
40
1
40
1
40
1
40
1
40
1
41
1
41
1
41
1
41
1
41
1
41
1
41
1
41
1
41
1
41
1
10
16.059156006398862
20
-9.9877031238217899
30
0
10
15.268576602810448
20
-8.7344741652819984
30
0
10
13.563846693496588
20
-6.6133070213402023
30
0
10
10.636440647939247
20
-4.5864223753216846
30
0
10
6.1541823608158106
20
-3.904062857656887
30
0
10
0.32934657441978521
20
-5.4978454898001239
30
0
10
-3.8212064266794066
20
-8.2759305468994171
30
0
10
-6.2784675921616042
20
-11.153731982639389
30
0
10
-7.5604025157660582
20
-13.4432832570571
30
0
10
-8.1122209165512622
20
-14.680877482909974
30
0
0
SPLINE
5
106
100
AcDbEntity
8
0
100
AcDbSpline
70
4
71
5
72
16
73
10
74
0
42
0.000000001
43
0.0000000001
44
0.0000000001
40
0
40
0
40
0
40
0
40
0
40
0
40
0.20000000000000001
40
0.40000000000000002
40
0.60000000000000009
40
0.80000000000000004
40
1
40
1
40
1
40
1
40
1
40
1
41
1
41
1
41
1
41
1
41
1
41
1
41
1
41
1
41
1
41
1
10
-8.1122209165512622
20
-14.680877482909974
30
0
10
-8.2795093832702609
20
-14.723775363224554
30
0
10
-8.6140863167085175
20
-14.809571123854106
30
0
10
-9.115951716866741
20
-14.938264764799641
30
0
10
-9.7851055837458674
20
-15.109856286062458
30
0
10
-10.621547917346525
20
-15.324345687643428
30
0
10
-11.290701784227943
20
-15.495937208909519
30
0
10
-11.792567184389364
20
-15.624630849859692
30
0
10
-12.127144117830444
20
-15.710426610493389
30
0
10
-12.294432584551018
20
-15.7533244908103
30
0
0
SPLINE
5
107
100
AcDbEntity
8
0
100
AcDbSpline
70
4
71
5
72
16
73
10
74
0
42
0.000000001
43
0.0000000001
44
0.0000000001
40
0
40
0
40
0
40
0
40
0
40
0
40
0.20000000000000001
40
0.40000000000000002
40
0.60000000000000009
40
0.80000000000000004
40
1
40
1
40
1
40
1
40
1
40
1
41
1
41
1
41
1
41
1
41
1
41
1
41
1
41
1
41
1
41
1
10
-18.049516005048194
20
-15.7533244908103
30
0
10
-20.244044848529796
20
-15.664787632599044
30
0
10
-24.633102535493116
20
-15.487713916176824
30
0
10
-31.21668906593839
20
-15.222103341544379
30
0
10
-39.994804439866343
20
-14.867955908702719
30
0
10
-50.967448657278723
20
-14.425271617652708
30
0
10
-59.745564031210847
20
-14.071124184813865
30
0
10
-66.329150561661422
20
-13.805513610185304
30
0
10
-70.718208248628883
20
-13.62843989376648
30
0
10
-72.912737092112735
20
-13.539903035557119
30
0
0
SPLINE
5
108
100
AcDbEntity
8
0
100
AcDbSpline
70
4
71
5
72
16
73
10
74
0
42
0.000000001
43
0.0000000001
44
0.0000000001
40
0
40
0
40
0
40
0
40
0
40
0
40
0.20000000000000001
40
0.40000000000000002
40
0.60000000000000009
40
0.80000000000000004
40
1
40
1
40
1
40
1
40
1
40
1
41
1
41
1
41
1
41
1
41
1
41
1
41
1
41
1
41
1
41
1
10
-72.912737092112735
20
-13.539903035557119
30
0
10
-74.815515118056283
20
-13.463136676897914
30
0
10
-78.560805072014944
20
-13.172247198013538
30
0
10
-83.998115093991657
20
-12.324169617549131
30
0
10
-90.945742136250445
20
-10.445627850928371
30
0
10
-99.360888466094735
20
-6.9997677775707468
30
0
10
-106.05755493924919
20
-3.3100927606989288
30
0
10
-111.13916418817124
20
0.10500759756037506
30
0
10
-114.56457720709592
20
2.7043862351042005
30
0
10
-116.28671416499515
20
4.0848037843208456
30
0
0
ARC
5
109
100
AcDbEntity
8
0
100
AcDbCircle
10
-15.171974294799606
20
-16.601707485559505
30
0
40
2.9999999999999991
210
0
220
-0
230
1
100
AcDbArc
50
16.427050179373015
51
163.57294982062697
0
CIRCLE
5
110
100
AcDbEntity
8
0
100
AcDbCircle
10
3.572548879466515
20
4.6559051350462139
30
0
40
1.5000000000000002
210
0
220
0
230
1
0
CIRCLE
5
111
100
AcDbEntity
8
0
100
AcDbCircle
10
58.994026561734316
20
-0.059788858416296442
30
0
40
1.5
210
0
220
0
230
1
0
LWPOLYLINE
5
112
100
AcDbEntity
8
0
100
AcDbPolyline
90
4
70
1
43
0.0
10
77.039545019062786
20
0.22387549103148607
10
73.596880772487964
20
2.2605548681931289
42
-0.99999999999999989
10
75.633560149649611
20
5.7032191147679487
10
79.07622439622439
20
3.6665397376064024
42
-0.99999999999999989
0
LINE
5
113
100
AcDbEntity
8
0
100
AcDbLine
10
72.893888337781377
20
5.000226680061358
30
0
11
79.779216841660912
21
0.92686794387527582
31
0
0
LINE
5
114
100
AcDbEntity
8
0
100
AcDbLine
10
11.023214424607879
20
8.1961809108366008
30
0
11
11.023214424598621
21
-0.77685992823059868
31
0
0
LINE
5
115
100
AcDbEntity
8
0
100
AcDbLine
10
52.843710530145252
20
6.3596569707699659
30
0
11
52.843710530145252
21
-5.0433651524511074
31
0
0
SPLINE
5
116
100
AcDbEntity
8
0
100
AcDbSpline
70
0
71
3
72
11
73
7
74
0
42
0.000000001
43
0.0000000001
44
0.0000000001
40
0.056672012099113642
40
0.056672012099113642
40
0.056672012099113642
40
0.056672012099113642
40
0.19597626831840828
40
0.19597626831840828
40
0.19597626831840828
40
0.22003965235191422
40
0.22003965235191422
40
0.22003965235191422
40
0.22003965235191422
10
17.196220902105381
20
-6.4491400006624051
30
0
10
15.972308990570788
20
-4.9785707087866786
30
0
10
14.561646022259399
20
-3.8108571525300801
30
0
10
13.023006041291252
20
-2.9970028854697888
30
0
10
12.757221737521968
20
-2.8564178932585689
30
0
10
12.488591042566721
20
-2.7266904780066663
30
0
10
12.217587604411186
20
-2.6074241654882968
30
0
0
SPLINE
5
117
100
AcDbEntity
8
0
100
AcDbSpline
70
0
71
3
72
8
73
4
74
0
42
0.000000001
43
0.0000000001
44
0.0000000001
40
0.0032139711893542848
40
0.0032139711893542848
40
0.0032139711893542848
40
0.0032139711893542848
40
0.29182085418241688
40
0.29182085418241688
40
0.29182085418241688
40
0.29182085418241688
10
40.029525442877656
20
10.705405044928982
30
0
10
43.560943547059374
20
10.308571466639826
30
0
10
46.976015096157624
20
9.8490843827104175
30
0
10
50.311324563437879
20
9.3229890597418201
30
0
0
ARC
5
118
100
AcDbEntity
8
0
100
AcDbCircle
10
49.843710530134359
20
-5.0433651524511074
30
0
40
3.0000000000374616
210
0
220
0
230
1
100
AcDbArc
50
-89.718758662805655
51
0
0
ARC
5
119
100
AcDbEntity
8
0
100
AcDbCircle
10
49.843710530149146
20
6.3596569707699659
30
0
40
2.999999999996108
210
-0
220
0
230
1
100
AcDbArc
50
0
51
81.032664625002454
0
ARC
5
120
100
AcDbEntity
8
0
100
AcDbCircle
10
14.023214424611785
20
8.1961809108335064
30
0
40
3.000000000008205
210
0
220
-0
230
1
100
AcDbArc
50
89.405738877762275
51
180
0
ARC
5
121
100
AcDbEntity
8
0
100
AcDbCircle
10
13.023214424598661
20
-0.77685992823302352
30
0
40
2.0000000000000417
210
0
220
0
230
1
100
AcDbArc
50
180
51
246.24582344534582
0
ARC
5
122
100
AcDbEntity
8
0
100
AcDbCircle
10
18.73347314791269
20
-5.1697434503560968
30
0
40
2.0000000000407763
210
0
220
0
230
1
100
AcDbArc
50
219.76932431522263
51
266.04476354779661
0
LINE
5
123
100
AcDbEntity
8
0
100
AcDbLine
10
34.543224514962233
20
7.7817516308999748
30
0
11
34.543224515001498
21
-4.9439370093711501
31
0
0
LINE
5
124
100
AcDbEntity
8
0
100
AcDbLine
10
31.543224514986242
20
7.9451593987798921
30
0
11
31.543224514986523
21
-4.7035869187923671
31
0
0
SPLINE
5
125
100
AcDbEntity
8
0
100
AcDbSpline
70
0
71
3
72
8
73
4
74
0
42
0.000000001
43
0.0000000001
44
0.0000000001
40
0.56689029698002569
40
0.56689029698002569
40
0.56689029698002569
40
0.56689029698002569
40
0.72037251351204368
40
0.72037251351204368
40
0.72037251351204368
40
0.72037251351204368
10
49.858436232737979
20
-8.0433290111773861
30
0
10
45.761977950893247
20
-8.0634539897800988
30
0
10
41.591056697302101
20
-8.0291415249337117
30
0
10
37.480606691403921
20
-7.9432834395913154
30
0
0
SPLINE
5
126
100
AcDbEntity
8
0
100
AcDbSpline
70
0
71
3
72
8
73
4
74
0
42
0.000000001
43
0.0000000001
44
0.0000000001
40
0.83510175173834134
40
0.83510175173834134
40
0.83510175173834134
40
0.83510175173834134
40
0.96726146627041198
40
0.96726146627041198
40
0.96726146627041198
40
0.96726146627041198
10
28.41920071642884
20
-7.7010221720359926
30
0
10
25.021535244945355
20
-7.5604325373719234
30
0
10
21.735736295339009
20
-7.3820983487019802
30
0
10
18.595518979130603
20
-7.1649799394578988
30
0
0
SPLINE
5
127
100
AcDbEntity
8
0
100
AcDbSpline
70
0
71
3
72
11
73
7
74
0
42
0.000000001
43
0.0000000001
44
0.0000000001
40
0.84411333139742428
40
0.84411333139742428
40
0.84411333139742428
40
0.84411333139742428
40
0.87566500771552058
40
0.87566500771552058
40
0.87566500771552058
40
0.9317778796844165
40
0.9317778796844165
40
0.9317778796844165
40
0.9317778796844165
10
14.054329306334495
20
11.196019550525556
30
0
10
15.784048621801059
20
11.17808336249392
30
0
10
17.519772806325818
20
11.155810796968922
30
0
10
19.261728509002303
20
11.129247639724095
30
0
10
22.359698212238385
20
11.082006566807998
30
0
10
25.477563175144621
20
11.020407168082592
30
0
10
28.615970638167248
20
10.944277269342535
30
0
0
SPLINE
5
128
100
AcDbEntity
8
0
100
AcDbSpline
70
0
71
3
72
8
73
4
74
0
42
0.000000001
43
0.0000000001
44
0.0000000001
40
0.98522535010790413
40
0.98522535010790413
40
0.98522535010790413
40
0.98522535010790413
40
0.99930041204255715
40
0.99930041204255715
40
0.99930041204255715
40
0.99930041204255715
10
37.633769475602158
20
10.780384921272216
30
0
10
38.431017790471998
20
10.756313723151674
30
0
10
39.2295997129347
20
10.731321330087951
30
0
10
40.029525464581461
20
10.705405050546686
30
0
0
ARC
5
129
100
AcDbEntity
8
0
100
AcDbCircle
10
28.543224514986942
20
7.9451593987799694
30
0
40
2.999999999999301
210
-0
220
0
230
1
100
AcDbArc
50
0
51
88.610515196443799
0
ARC
5
130
100
AcDbEntity
8
0
100
AcDbCircle
10
37.543224514972124
20
7.7817516309092314
30
0
40
3.0000000000627889
210
0
220
-0
230
1
100
AcDbArc
50
88.270455975833514
51
180
0
ARC
5
131
100
AcDbEntity
8
0
100
AcDbCircle
10
37.543224514986669
20
-4.9439370093626813
30
0
40
2.9999999999851745
210
0
220
0
230
1
100
AcDbArc
50
180
51
268.80400081233915
0
ARC
5
132
100
AcDbEntity
8
0
100
AcDbCircle
10
28.543224514986527
20
-4.7035869187923671
30
0
40
3.0000000000032645
210
0
220
0
230
1
100
AcDbArc
50
-92.369355309937745
51
0
0
LINE
5
133
100
AcDbEntity
8
0
100
AcDbLine
10
65.172062392937391
20
3.8992823617976362
30
0
11
65.172062392915251
21
-5.594035650659225
31
0
0
SPLINE
5
134
100
AcDbEntity
8
0
100
AcDbSpline
70
4
71
5
72
16
73
10
74
0
42
0.000000001
43
0.0000000001
44
0.0000000001
40
0
40
0
40
0
40
0
40
0
40
0
40
0.20000000000000001
40
0.40000000000000002
40
0.60000000000000009
40
0.80000000000000004
40
1
40
1
40
1
40
1
40
1
40
1
41
1
41
1
41
1
41
1
41
1
41
1
41
1
41
1
41
1
41
1
10
70.80709003304662
20
3.7459561401465842
30
0
10
70.821924042533539
20
3.2734367386072609
30
0
10
70.914892916914624
20
2.4013027117890164
30
0
10
71.244077960798705
20
1.3116192477418815
30
0
10
72.010108473032034
20
0.23545485335842001
30
0
10
73.33055510465239
20
-0.6917821588875086
30
0
10
74.565014464048545
20
-1.2284483098875376
30
0
10
75.558130513715369
20
-1.5534700467239795
30
0
10
76.248163637860969
20
-1.7379540368626207
30
0
10
76.600172078999833
20
-1.8221433543547463
30
0
0
SPLINE
5
135
100
AcDbEntity
8
0
100
AcDbSpline
70
0
71
3
72
8
73
4
74
0
42
0.000000001
43
0.0000000001
44
0.0000000001
40
0.17405098109919803
40
0.17405098109919803
40
0.17405098109919803
40
0.17405098109919803
40
0.33506157510889945
40
0.33506157510889945
40
0.33506157510889945
40
0.33506157510889945
10
76.807784787176615
20
-6.6840262688914995
30
0
10
74.164057496345009
20
-7.0725143620225195
30
0
10
70.92139282512953
20
-7.3706307633989274
30
0
10
67.292966156296572
20
-7.5903778758347737
30
0
0
SPLINE
5
136
100
AcDbEntity
8
0
100
AcDbSpline
70
0
71
3
72
8
73
4
74
0
42
0.000000001
43
0.0000000001
44
0.0000000001
40
0
40
0
40
0
40
0
40
0.29188518991628892
40
0.29188518991628892
40
0.29188518991628892
40
0.29188518991628892
10
39.908316337489666
20
10.711834251797631
30
0
10
43.482756016130054
20
10.314437119118381
30
0
10
46.937807149792334
20
9.8528232860417155
30
0
10
50.311324590374042
20
9.3229890647371541
30
0
0
SPLINE
5
137
100
AcDbEntity
8
0
100
AcDbSpline
70
0
71
3
72
8
73
4
74
0
42
0.000000001
43
0.0000000001
44
0.0000000001
40
0.80829172103519864
40
0.80829172103519864
40
0.80829172103519864
40
0.80829172103519864
40
0.86022375573833498
40
0.86022375573833498
40
0.86022375573833498
40
0.86022375573833498
10
67.730627774652618
20
5.8197002075369202
30
0
10
68.293384169900392
20
5.6560157854650894
30
0
10
68.855167325069985
20
5.4893071229108799
30
0
10
69.416083510572363
20
5.3194119692596225
30
0
0
SPLINE
5
138
100
AcDbEntity
8
0
100
AcDbSpline
70
0
71
3
72
11
73
7
74
0
42
0.000000001
43
0.0000000001
44
0.0000000001
40
0.43777159293769341
40
0.43777159293769341
40
0.43777159293769341
40
0.43777159293769341
40
0.5
40
0.5
40
0.5
40
0.54181118667138117
40
0.54181118667138117
40
0.54181118667138117
40
0.54181118667138117
10
78.050363425788376
20
-3.0636214384535361
30
0
10
78.128316968967823
20
-3.2674653822220816
30
0
10
78.203047327957364
20
-3.4693268721476445
30
0
10
78.274258322370443
20
-3.6688595118549747
30
0
10
78.322104897930032
20
-3.80292523584954
30
0
10
78.36815290293012
20
-3.9355568926712117
30
0
10
78.412370174807762
20
-4.0668234941201575
30
0
0
ARC
5
139
100
AcDbEntity
8
0
100
AcDbCircle
10
67.172062392937391
20
3.8992823617929702
30
0
40
2.000000000543257
210
0
220
-0
230
1
100
AcDbArc
50
73.782601544748672
51
180
0
ARC
5
140
100
AcDbEntity
8
0
100
AcDbCircle
10
67.172062392915251
20
-5.5940356506638906
30
0
40
2.0000000000000018
210
0
220
0
230
1
100
AcDbArc
50
180
51
273.4657507648709
0
ARC
5
141
100
AcDbEntity
8
0
100
AcDbCircle
10
76.517013175819855
20
-4.7052761911836019
30
0
40
2
210
0
220
0
230
1
100
AcDbArc
50
-81.640379024721199
51
18.61614418306802
0
ARC
5
142
100
AcDbEntity
8
0
100
AcDbCircle
10
68.836317312465212
20
3.4052878504854567
30
0
40
1.9999999999421278
210
0
220
-0
230
1
100
AcDbArc
50
9.807247505165213
51
73.149042202094762
0
ARC
5
143
100
AcDbEntity
8
0
100
AcDbCircle
10
76.182300147793001
20
-3.7780020018826175
30
0
40
2.00000000000002
210
0
220
-0
230
1
100
AcDbArc
50
20.927741538627732
51
77.939995594057862
0
ENDSEC
0
SECTION
2
OBJECTS
0
DICTIONARY
5
C
100
AcDbDictionary
3
ACAD_GROUP
350
D
3
ACAD_MLINESTYLE
350
17
0
DICTIONARY
5
D
100
AcDbDictionary
0
DICTIONARY
5
1A
330
C
100
AcDbDictionary
0
DICTIONARY
5
17
100
AcDbDictionary
0
ENDSEC
0
EOF
